Guitaretab - guitar tabs
Song name
# A B C D E F G H I J K L M N O P Q R S T U V W X Y Z

Misc Unsigned Bands - 2020 Vision - Shawns Parents Are Coming Home tab

Shawns Parents are coming home
Intro:
E|----------------------------------------------|
B|----------------------------------------------|
G|----------------------------------------------|
D|--3-3-3"6-6-6-6-8-8-8-6-6-6-6-----------------|
A|--3-3-3-6-6-6-6-8-8-8-6-6-6-6-----------------|
E|--1-1-1-4-4-4-4-6-6-6-4-4-4-4-----------------|
intro chords
E|----------------------------------------------|
B|----------------------------------------------|
G|----------------------------------------------|
D|----7--10---14--------------------------------|
A|----7--10---14--------------------------------|
E|----5---8---12--------------------------------|
Verse
E|--1----1----1----1----1-----------------------|
B|-1----1----1----1----1------------------------|
G|----------------------------------------------|
D|----------------------------------------------|
A|----------------------------------------------|
E|----------------------------------------------|
Chorus
E|----------------------------------------------|
B|----------------------------------------------|
G|----------------------------------------------|
D|--5-8-8-101013-12-13-12-11-12-----------------|
A|--3-6-6-8-8"11-10-11-10-11-10---------------|
E|----------------------------------------------|
Bridge Chords
E|----------------------------------------------|
B|----------6-----------------------------------|
G|----------5-----------------------------------|
D|--12--14--3-----------------------------------|
A|--12--14--------------------------------------|
E|--10--12--------------------------------------|

BASS
Outro (fingerpicked)
G|----------------------------------------------|
D|---33-55-3333-5555-333-55-55-44---------------|
A|----------------------------------------------|
E|----------------------------------------------|

DRUMS
Hit stuff very fast then run off stage at the bridge.
[ Tab from: http://www.guitaretab.com/m/misc-unsigned-bands/52897.html ]
Related for 2020 Vision - Shawns Parents Are Coming Home tab