Song name
# A B C D E F G H I J K L M N O P Q R S T U V W X Y Z

Misc Unsigned Bands - 2020 Vision - Child Take Out tab

Child Take Out 

(acoustic, muted with left hand over 2nd fret)
E|--XXX-----XXX---------------------------|
B|------XXX-----XXX-----------------------|
G|----------------------------------------|
D|----------------------------------------|
A|----------------------------------------|
E|----------------------------------------|
Verse
E|--1-2-1-1-2-2-1-1-----------------------|
B|--0-0-0-0-0-0-0-0-----------------------|
G|--0-0-0-0-0-0-0-0-----------------------|
D|--0-0-0-0-0-0-0-0-----------------------|
A|--0-0-0-0-0-0-0-0-----------------------|
E|--0-0-0-0-0-0-0-0-----------------------|
Outtro
E|------------------0---------------------|
B|----0-0-3-0-3-----5---------------------|
G|--0-0-0-0-0-0-----4---------------------|
D|--2-0-2-0-2-2---------------------------|
A|--0-0-0-0-0-0---------------------------|
E|--0---0---0-0---------------------------|
Tap to rate this tab
# A B C D E F G H I J K L M N O P Q R S T U V W X Y Z