Song name
# A B C D E F G H I J K L M N O P Q R S T U V W X Y Z

Misc Unsigned Bands - 2020 Vision - Hokey Pokey tab

2020 Vision - The Hokey Pokey

Tuning - Drop D
Intro (Heavy Mute)
e|-------------------------------------------------------------------------|
B|-------------------------------------------------------------------------|
G|-------------------------------------------------------------------------|
D|--12-12-9-9-9-12-12-15-15-15---------------------------------------------|
A|--12-12-9-9-9-12-12-15-15-15---------------------------------------------|
D|--12-12-9-9-9-12-12-15-15-15---------------------------------------------|

e|-------------------------------------------------------------------------|
B|-------------------------------------------------------------------------|
G|-------------------------------------------------------------------------|
D|--12-12-9-9-9-12-12-15-15-15---------------------------------------------|
A|--12-12-9-9-9-12-12-15-15-15---------------------------------------------|
D|--12-12-9-9-9-12-12-15-15-15-----------------------------------------
Verse 'put your left foot in    put your left foot in, right foot in
e|-------------------------------------------------------------------------|
B|-------------------------------------------------------------------------|
G|-------------------------------------------------------------------------|
D|--12--9--9---12--15-----12--9---12--15-------------12-12---9---9--12--15-|
A|--12--9--9---12--15-----12--9---12--15-------------12-12---9---9--12--15-|
D|--12--9--9---12--15-----12--9---12--15-------------12-12---9---9--12--15-|
..fall down the stairs because you cant stand
e|--------------------------------------------------------------------------|
B|--------------------------------------------------------------------------|
G|--------------------------------------------------------------------------|
D|-12-12--9-9-9-----12-12--15-15-15-15-0-12---------------------------------|
A|-12-12--9-9-9-----12-12--15-15-15-15-0-12---------------------------------|
D|-12-12--9-9-9-----12-12--15-15-15-15-0-12---------------------------------|
(repeat for other verses)

Guitar fill:
...ball dance..'
e|-------------------------------------------------------------------------|
B|-------------------------------------------------------------------------|
G|-------------------------------------------------------------------------|
D|--9-9----0--------------------------12-12--------------------------------|
A|--9-9----0------------------9-9-9---12-12--------------------------------|
D|--9-9----0----0-0-3-3-3-0-0-9-9-9---12-12--------------------------------|

Solo:
e|-------------------------------------------------------------------------|
B|--14-14-11-11-11-14-14-17-17-17------------------------------------------|
G|-------------------------------------------------------------------------|
D|-------------------------------------------------------------------------|
A|-------------------------------------------------------------------------|
D|-------------------------------------------------------------------------|

e|-------------------------------------------------------------------------|
B|--14-14-11-11-11-14-14-17-17-17------------------------------------------|
G|-------------------------------------------------------------------------|
D|-------------------------------------------------------------------------|
A|-------------------------------------------------------------------------|
D|-------------------------------------------------------------------------|
                                             (keep going!)
e|---------------------------------19--------------------------------------|
B|--14-14-11-11-11-14-14-14\17^(19)17(18)----------------------------------|
G|-------------------------------------------------------------------------|
D|-------------------------------------------------------------------------|
A|-------------------------------------------------------------------------|
D|-------------------------------------------------------------------------|

Outtro 'Thats what its all about!'
e|-------------------------------------------------------------------------|
B|-------------------------------------------------------------------------|
G|-------------------------------------------------------------------------|
D|-12-0------12--12~~~-----------------------------------------------------|
A|-12-0-------0---0--------------------------------------------------------|
D|-12-0-------0------------------------------------------------------------|
Tap to rate this tab
# A B C D E F G H I J K L M N O P Q R S T U V W X Y Z