Song name
# A B C D E F G H I J K L M N O P Q R S T U V W X Y Z

Misc Unsigned Bands - Fuhgawz - Vamos A Topsy tab

Vamos a Topsy
Fuhgawz  ese no es el nomre real de la banda pero bue si no queda otra

Nico
nicokbbl@hotmail.com

1|----------------------------------------------------------------|
2|----------------------------------------------------------------|
3|-10-10-10-10-10-10----------------------------------------------|  x2
4|--9--9--9--9--9--9----------------------------6-6-6-6-6---------|
5|--7--7--7--7--7--7---3-3-3-3-3----9-9-9-9-9---7-7-7-7-7---------|
6|---------------------5-5-5-5-5----7-7-7-7-7---------------------|

vamos a topsy vamos ya es el mejor lugar... x 2

1|------------------------------------------------------------|
2|------------------------------------------------------------|
3|-10--10--10-------------------------------------------------|   x2
4|--9---9---9---------------------------6-6-6-6-6-------------|
5|--7---7---7----3-3-3-3-3----7--7--7---7-7-7-7-7-------------|
6|---------------5-5-5-5-5----9--9--9-------------------------|

topsy esta en tu corazon topsy esta en mi corazon.. x2

Solo (Punteo de Guitarra)

1|-------------------------------------------------------------|
2|-------------------------------------------------------------|
3|--10-10-10-10-10-10-11-11-11---11----8-8-8-8-8---6-6-6/5-----|
4|-------------------------------------------------------------|
4|-------------------------------------------------------------|
5|-------------------------------------------------------------|
6|-------------------------------------------------------------|

1|--------------------------------------------------------------|
2|----------------------10-11-11-11--13-13/14-14-14-14----------|
3|-10-10-10-10-10-10-11-----------------------------------------|
4|--------------------------------------------------------------|
5|--------------------------------------------------------------|
6|--------------------------------------------------------------|

Repeat Fisrt Part And Finally

Repetir La Primera Parte Y Termina

nicokbbl@hotmail.com
Tap to rate this tab
# A B C D E F G H I J K L M N O P Q R S T U V W X Y Z