Song name
# A B C D E F G H I J K L M N O P Q R S T U V W X Y Z

Misc Unsigned Bands - Fiftyone - Heartbreak tab

Help us improve GuitareTab! Take a short survey!
Heartbreak tab
by FiftyOne
tabbed by Hugo

e-17-15-----------------------------------|
b------17-15------------------------------|
g-----------17-15-----------15-17---------|
d----------------15-17-15-17--------------|
a-----------------------------------------|
E-----------------------------------------|

e-17-15-----------------------------------|
b------17-15------------------------------|
g-----------17-15-----------15v-----------|
d----------------15-17-15-17--------------|
a-----------------------------------------|
E-----------------------------------------|
Related for Fiftyone - Heartbreak tab