Song name
# A B C D E F G H I J K L M N O P Q R S T U V W X Y Z

Misc Unsigned Bands - 48 May - Leather And Tattoes tab

Help us improve GuitareTab! Take a short survey!
Tabbed by the slayer/simon

Ok this tab is a bit out but theres no other versions on here.
Also this is just the lead part of the song.
Normal tuning E,B,G,D,A,E
Distortion

Intro/Riff
E|-------------------------------------|
B|-------------------------------------|
G|:-6-7-9-7--6-7-9-9\11-9--6-7-9-7-6~-:|
D|:-----------------------------------:|
A|-------------------------------------|
E|-------------------------------------|

Solo
E|---------------------------------------|
B|---------------------------------------|
G|--6-7-7h9p7--6-7-9h11p9--6-7-7h9p7-6~--|
D|---------------------------------------|
A|---------------------------------------|
E|---------------------------------------|

Bridge
E|-------------------|
B|-------------------|
G|-------------------|
D|-7~---9~---7~---9~-|
A|-7~---9~---7~---9~-|
E|-5~---7~---5~---7~-|

Play with distortion

Key:
/ =slide
: =repeat
~ =vibrato

Have fun
Related for 48 May - Leather And Tattoes tab