Song name
# A B C D E F G H I J K L M N O P Q R S T U V W X Y Z

Misc Unsigned Bands - Cool Z - Dayz Gone Bye tab

HEY MY BAND AND I ARE NEW AND SOON WE WILL HAVE THE REST THIS ISN'T MUCH BUT WHERE BEGINERS.

GUITAR 1
E(-------------------------------)
B(-----------------4-4-4-3-3-----)
G(--5-5-5--3-3--3----------------)
D(-------------------------------)
A(-------------------------------)
E(-------------------------------)
___________________________________ after you both do both again!!!!!!

E(-------------------------------)
B(-----------------4-4-4-3-3-----)
G(--5-5-5--3-3--3----------------)
D(-------------------------------)
A(-------------------------------)
E(-------------------------------)
Tap to rate this tab
 
# A B C D E F G H I J K L M N O P Q R S T U V W X Y Z