Song name
# A B C D E F G H I J K L M N O P Q R S T U V W X Y Z

Misc Unsigned Bands - Curls - Fuck Kill Love tab

The Curls
Fuck Kill Love
by Christian Röthlisberger/Dominik Bolle

The Curls are an underground band from Switzerland they play hard rock and heavy metal

E----------------------------0------------------------------------|
B----------------------------0------------------------------------|
G----------------------------0------------------------------------|
D-----2----2-----2----2-------------------------------------------|
A-----2----2-----2----2-------------------------------------------|
E-----0----0-----0----0-------------------------------------------|

E----------------------------0------------------------------------|
B----------------------------0------------------------------------|
G----------------------------0------------------------------------|
D-----2----2-----2----2-------------------------------------------|
A-----2----2-----2----2-------------------------------------------|
E-----0----0-----0----0-------------------------------------------|

E----------------------------0------------------------------------|
B----------------------------0------------------------------------|
G----------------------------0------------------------------------|
D-----2----2-----2----2-------------------------------------------|
A-----2----2-----2----2-------------------------------------------|
E-----0----0-----0----0-------------------------------------------|

E-----------------------------------------------------------|
B-----------------------------------------------------------|
G-----------------------------------------------------------|
D----5----5----5----5-----7----7----7----7------------------|
A----5----5----5----5-----7----7----7----7------------------|
E----3----3----3----3-----5----5----5----5------------------|

have Fun


sir.chrigi@gmx.ch
Tap to rate this tab
# A B C D E F G H I J K L M N O P Q R S T U V W X Y Z