Song name
# A B C D E F G H I J K L M N O P Q R S T U V W X Y Z

Misc Unsigned Bands - Chris Watts Band - House Of Glass tab

The Chris Watts band is a new band from NE Texas, official name hasn't been decided

Both of these openings work

intro:
#1

e|--x-x-x-x-x-xxx-x-x--x-x-x-x-x-xxx-x-x--x-x-x-x-x-xxx-x-x--x--x--x-----|
b|--x-x-x-x-x-xxx-x-x--x-x-x-x-x-xxx-x-x--x-x-x-x-x-xxx-x-x--x--x--x-----|
g|--x-x-0-0-x-xxx-x-x--x-x-0-0-x-xxx-x-x--x-x-0-0-x-xxx-x-x--0--0--0-----|
d|--0-0-x-x-0-000-x-x--0-0-x-x-0-000-x-x--0-0-x-x-0-000-x-x--0--0--0-----|
a|--x-x-x-x-x-xxx-0-0--x-x-x-x-x-xxx-0-0--x-x-x-x-x-xxx-0-0--0--0--0-----|
e|--x-x-x-x-x-xxx-x-x--x-x-x-x-x-xxx-x-x--x-x-x-x-x-xxx-x-x--x--x--x-----|

#2 this one's easier but the 1st one is more accurate

e|-----------------------------------------------------------------------|
b|-----------------------------------------------------------------------|
g|-----------------------------------------------------------------------|
d|------5-5----------------5-5----------------5-5------------5--5--5-----|
a|--5-5-----5-555------5-5-----5-555------5-5-----5-555------5--5--5-----|
e|----------------5-5----------------5-5----------------5-5--5--5--5-----|


The main part goes like this

Chords

    C     G     F
e|-----|--3--|--1--|
b|--1--|--0--|--1--|
g|--0--|--0--|--2--|
d|--2--|--0--|--3--|
a|--3--|--2--|--0--|
e|-----|--3--|-----|


|---C-C/F-F\C-C\G-G/---|repeat   |----C--C--C-----|

I don't know the solo yet but i'll tell you when i find out

outro:

e|---------------------------|
b|---------------------------|
g|----2----------------------|
d|----3----2---------2-------|
a|---------3----2----3-------|
e|--------------3------------|
Tap to rate this tab
# A B C D E F G H I J K L M N O P Q R S T U V W X Y Z