Song name
# A B C D E F G H I J K L M N O P Q R S T U V W X Y Z

Misc Unsigned Bands - Bloody Squirrels - The Cold tab

Help us improve GuitareTab! Take a short survey!
-------------------------------------------------------------------------------
			     The Cold - Bloody Squirrels
-------------------------------------------------------------------------------
Tabbed by: Colby Mike
Email:

Tuning:EADGBe
  verse 1
e|--------1-----------0------------------------------------------------------|
B|----3----3--3----3---3--3--------------------------------------------------|
G|---2--2---2----2--2---2---------8x-----------------------------------------
D|--0----------0-------------------------------------------------------------|
A|---------------------------------------------------------------------------|
E|---------------------------------------------------------------------------|
   pre-chorus
e|----1---------0------------------------------------------------------------
B|----3---------3------------------------------------------------------------      12x       12x
G|----2---------2-----------------------------------------------------------
-
D|----0---------0------------------------------------------------------------
A|---------------------------------------------------------------------------|
E|---------------------------------------------------------------------------|
     chorus
e|---------------------------------------------------------------------------|
B|---------------------------------------------------------------------------|
G|------------------------3-3-x-2-2-x-2/3------------------------------------
D|----5-5--x--2-2-x-2-x-x-3-3-x-2-2-x-2/3----4x------------------------------
A|----5-5--x--2-2-x-2-x-x-1-1-x-0-0-x-0/1------------------------------------
E|----3-3--x--0-0-x-0-x-x----------------------------------------------------
   verse 2
e|---1-------0---------------------------------------------------------------
B|---3-------3---------------------------------------------------------------
G|---2--12x--2---12x---------------------------------------------------------
D|---0-------0---------------------------------------------------------------
A|---------------------------------------------------------------------------|
E|---------------------------------------------------------------------------|

  repeat chorus 2x       ( i've got the solo comin up next )

                                    BLOODY SQUIRRELS' LEAD GUITARIST
                                             COLBY MIKE
| /  slide up
| \  slide down
| h  hammer-on
| p  pull-off
| ~  vibrato
| +  harmonic
| x  Mute note
===============================================================================
Related for Bloody Squirrels - The Cold tab