Song name
# A B C D E F G H I J K L M N O P Q R S T U V W X Y Z

Misc Unsigned Bands - The Soe - Do It All Again tab

regular tuning

intro
------------------------------|
------------------------------|
------------------------------|
------------------------------|
-3---3-3----3333333333333333--|
-1---1-1----1111111111111111--|

chorus
----------------------------------|
----------------------------------|
----------------------------------|
-3-33-4-4-4-3-33-4-4-4-3-33-2-2-2-|
-3-33-4-4-4-3-33-4-4-4-3-33-2-2-2-|
-1-11-2-2-2-1-11-2-2-2-1-11-0-0-0-|

verse
-------------------------------------------------|
-------------------------------------------------|
-------------------------------------------------|
-------------------------------------------------|
-3-3-3-3-4-4-4-4-3-3-3-3-4-4-4-4-3-3-3-3-2-2-2-2-|
-1-1-1-1-2-2-2-2-1-1-1-1-2-2-2-2-1-1-1-1-0-0-0-0-|
PM________________________________________________

solo
------------------------------------------------------------------------|
------------------------------------------------------------------------|
11-11-11-11-12-12-12-12-11-11-11-11-12-12-12-12-11-11-11-11-10-10-10-10-|
------------------------------------------------------------------------|
------------------------------------------------------------------------|
------------------------------------------------------------------------|

ending
-----------------------|
-----------------------|
-----------------------|
-----------------------|
-----------------------|
0-0-9-10-0-0-9-10-0----|


intro
chorus3x
verse2x
chorus5x
verse2x
chorus5x
solo2x
chorus5x
ending

all distorted
Tap to rate this tab
# A B C D E F G H I J K L M N O P Q R S T U V W X Y Z