Song name
# A B C D E F G H I J K L M N O P Q R S T U V W X Y Z

Misc Unsigned Bands - Crownheartruin - A Subtle Kiss On The Neck tab

Intro Crownheartruin is a local band from Wilmington, Delaware. Unfortunitly they just
broke up so im dedicating these tabs to them.

Clean

E----------------------------------------------------------------------------|
-------------------8---------------------------------------------------------|
---------------0------0------------------------------------------------------|
-----------9--------------9--------------------------------------------------|
------10---------------------10----------------------------------------------|
E--0-----------------------------0-------------------------------------------|

E----------|
----0------|
----9------|
---10--X8--|
E--8-------|
Tap to rate this tab
# A B C D E F G H I J K L M N O P Q R S T U V W X Y Z