Song name
# A B C D E F G H I J K L M N O P Q R S T U V W X Y Z

Misc Unsigned Bands - Numbskalls - Cowboy In A Ketchup Factory tab

Okay first I will give you the simple blues prgression, which is normally a 12 bar but
this time only a 3 bar.

G ---  C --- D ---

The intro riff goes like this! (W/Acoustic Sound)

e------------------------------------------------------|
B------------------------------------------2-----------|
G-------------0--------------------------0---5-5-3-5---|
D------0----3-------0--2----------0----3-------------5-|
A----3----2-------3------3-3----3----2-----------------|
E--2------------2-------------2------------------------|

Verse:

POWER CHORDS IN 3 BAR BLUES PROGRESSION. (Breaks into Distortion)

e--------------------|
B--------------------|
G-----------5--5--5--|  (Part 1)
D--5--5--5--5--5--5--|                 
A--5--5--5--3--3--3--|   Play 4x  -- Then Play again W/Palm Muting.
E--3--3--3-----------|


(Part 2)

Then play the G - 5x
Then play the C - 5x
Then play the D - 5x

(Play this 2x)


(Part 3)-Light Distortion-Slower beat.

A--------------------------3-3-----5-5-----3-3--5-5--3-3---|
E--3---3-(Let Ring)----3-3-----3-3-----3-3---------------3-|(Play 2X)



Then Play intro riff again.



e------------------------------------------------------|
B------------------------------------------2-----------|
G-------------0--------------------------0---5-5-3-5---|
D------0----3-------0--2----------0----3-------------5-|
A----3----2-------3------3-3----3----2-----------------|
E--2------------2-------------2------------------------|

Drums Stop.

(PART 4)

Heavy Guitar Rocks Out. Heavy Distortion.



G ----- C ---- D


THen end on G 


THE END!!!!
Tap to rate this tab
# A B C D E F G H I J K L M N O P Q R S T U V W X Y Z