Song name
# A B C D E F G H I J K L M N O P Q R S T U V W X Y Z

Misc Unsigned Bands - Fuhgawz - Sex Alcohol And Rock N Roll tab

-----------------------------------------------------------------------------
		   Sex, alcohol and rock n' roll - Fuhgawz
-----------------------------------------------------------------------------
Tabbed by: Ignacio "Coco" Vespoli
Email: cocofuhgawz@hotmail.com

Tuning: Normal

e|-------------------------------------|
B|-------------------------------------|
G|-------------------------------------|
D|--2-2-4--2-2-2-4--2-2-2-4--2-2-2-4---|
A|--0-0-0--0-0-0-0--0-0-0-0--0-0-0-0---|
E|-------------------------------------|


e|-------------------------------------|
B|-------------------------------------|
G|--2-2-4--2-2-2-4--2-2-2-4--2-2-2-4---|
D|--0-0-0--0-0-0-0--0-0-0-0--0-0-0-0---|
A|-------------------------------------|
E|-------------------------------------|


e|-------------------------------------|
B|-------------------------------------|
G|-------------------------------------|
D|--2-2-4--2-2-2-4--2-2-2-4--2-2-2-4---|
A|--0-0-0--0-0-0-0--0-0-0-0--0-0-0-0---|
E|-------------------------------------|


Chorus (while the bass is playing the solo)
e|---------------|
B|---------------|
G|---------------|
D|--9~-9-7~-7/---|
A|--7~-7-5~-5/---|
E|---------------|


End
e|------------------------------|
B|------------------------------|
G|------------------------------|
D|--2-2-4--2-2-2-4--2-2-2-4-2---|
A|--0-0-0--0-0-0-0--0-0-0-0-0---|
E|------------------------------|



 /  slide up
 \  slide down
 h  hammer-on
 p  pull-off
 ~  vibrato
 +  harmonic
 x  Mute note
=============================================================================

If you want to listen the song, please email-me to cocofuhgawz@hotmail.com
Tap to rate this tab
# A B C D E F G H I J K L M N O P Q R S T U V W X Y Z