Song name
# A B C D E F G H I J K L M N O P Q R S T U V W X Y Z

Misc Unsigned Bands - Coldwater Romance - Just So You Know tab

Help us improve GuitareTab! Take a short survey!
this is a great band... local band from seattle. there kind of screamo.
some good songs by them are... just so you know, slip and pass, why ninjas dont fight 
bazookas, cut the apple tree, and more.

--------------------------------------------------------------|
--------------------------------------------------------------|
--17--15--14--12--14--12--10----------------------------------|
--------------------------------------------------------------|
--------------------------------------------------------------|
--------------------------------------------------------------|

------------------------------------------------------------|
------------------------------------------------------------|
---17--15--14--10--14--12--10-------------------------------|
------------------------------------------------------------|
------------------------------------------------------------|
------------------------------------------------------------|

------------------------------------------------------------|
------------------------------------------------------------|
--17--15-14--h12--14--12--14--14--10------------------------|
------------------------------------------------------------|
------------------------------------------------------------|
------------------------------------------------------------|

------------------------------------------------------------|
------------------------------------------------------------|
---14--15--14--12--14--12--10-------------------------------|
------------------------------------------------------------|
------------------------------------------------------------|
------------------------------------------------------------|
Related for Coldwater Romance - Just So You Know tab