Song name
# A B C D E F G H I J K L M N O P Q R S T U V W X Y Z

Misc Unsigned Bands - Red Valley - Nevermind tab

This is my first time tabbing my song on the computer. me and my band dont have any 
to put down yet. oh and im only 14

Intro x4

---------------------------------|
---------------------------------|
---------7-0-7-0-----------------|
-0-9-7-0---------7-0-7-0---------|
-------------------------7-0-7-0-|

---0---|
---0---|
---0---|
---2---| end of the last 7070
---2---|
---0---|

verse 1 and 2 x5

-------0------3-3-3-3-----------0-----------0------0-0--|
-------0------------0-----------0-----------0------0-0--|
-------0--x-x-------0-x-x-------0-x-x-------0------0-0--|
-2-2-2-2--x-x-------0-x-x-7-7-7-7-x-x-9-9-9-9--9-9-9-9--|
-2-2-2-2--x-x-2-2-2-2-x-x-7-7-7-7-x-x-7-7-7-7--7-7-7-7--|
-------0------3-3-3-3-----5-5-5-5-----7-7-7-7--7-7-7-7--|

chorus x9
------------------------|
----------------1---1---|
------------------------|
-----2----2-----2---2---|
-----2----2-----3---3---|
-0-0--0-0--0-0--0--0----|

order:  intro
        verse
        chorus
        1/4 verse
        intro
        verse
        chorus
        fade intro out
Tap to rate this tab
# A B C D E F G H I J K L M N O P Q R S T U V W X Y Z