Song name
# A B C D E F G H I J K L M N O P Q R S T U V W X Y Z

Misc Unsigned Bands - Fuhgawz - Capiche tab

-----------------------------------------------------------------------------
			    Capiche - Fuhgawz
-----------------------------------------------------------------------------

Tabbed by: Ignacio "Coco" Vespoli
Email: cocofuhgawz@hotmail.com

Tuning: Normal

Intro
e|----------------------------------------------------|
B|----------------------------------------------------|
G|--5-5-5-5-5-0-5-5-5/6-6-6-6-6-----------4-4-4-4-4---|
D|--5-5-5-5-5-0-5-5-5/6-4-4-4-4-5-5-5-5-5-4-4-4-4-4---|
A|--3-3-3-3-3-0-3-3-3/4-4-4-4-4-5-5-5-5-5-2-2-2-2-2---|
E|------------------------------3-3-3-3-3-------------|


Verse/solo
e|--------------------------------------------|
B|--------------------------------------------|
G|--7-7-7-7-7-----------9-9-9-9-9-5-5-5-5-5---|
D|--7-7-7-7-7-5-5-5-5-5-9-9-9-9-9-5-5-5-5-5---|
A|--5-5-5-5-5-5-5-5-5-5-7-7-7-7-7-3-3-3-3-3---|
E|------------3-3-3-3-3-----------------------|



(Intro x2)

(Intro x4)
Fumado y chupado llegue a mi casa        
Todavia flasheando con chichita de casa
Esa rubia puta que me mueve la pansa
Muy cansado y sin esperanza

(Intro x2)
Me duele la pansa
(Intro x1)

(Verse x2)
Capiche capiche capiche  capiche
Capiche capiche capiche  capiche
Capiche capiche capiche  capiche
Capiche capiche capiche  capiche

End: (Verse x2)



 /  slide up
 \  slide down
 h  hammer-on
 p  pull-off
 ~  vibrato
 +  harmonic
 x  Mute note
=============================================================================
Comments? You know what to do...
Tap to rate this tab
# A B C D E F G H I J K L M N O P Q R S T U V W X Y Z