Song name
# A B C D E F G H I J K L M N O P Q R S T U V W X Y Z

Misc Unsigned Bands - Low Frecuency - The End tab

Artist: Low frecuency
Song: the end
Album: low frecuency
Written by: low frecuency
Tabbed by: matt taylor
E-mail: matt_taylor16@hotmail.com

\VERRSe


A5   E       D5
A5   E       D5
A5   E       D5
A5   E       D5


\VERRSe


A5   E       D5
A5   E       D5
A5   E       D5
A5   E       D5


Chorus
D5      A5        E
D5      A5        E

D5      A5        E

repeat verse

SOLO:

E:|---------------------------------------------------|
B:|--------------12-12-12----------------12-12-12-----|
G:|---11-11-11-11-11-11-11-11-11-11-11-11-11-11-11----|
D:|---11-11-11-11-11-11-11-11-11-11-11-11-11-11-11----|
A:|---------------------------------------------------|
E:|---------------------------------------------------|

E:|---------------------------------------------------|
B:|----9---9--9-11-11-11--9---9--9--9--11-11-11--9--9-|
G:|---10-10-10-10-10-10-10-10-10-10-10-10-10-10-10----|
D:|---11-11-11-11-11-11-11-11-11-11-11-11-11-11-11----|
A:|---------------------------------------------------|
E:|---------------------------------------------------|

E:|---------------------------------------------------|
B:|---------------------------------------------------|
G:|---------------------------------------------------|
D:|---8-8-8-9-9-9-8-8-6-6-6-8-8-8-9-8-----------------|
A:|---6-6-6-6-6-6-6-6-6-6-6-6-6-6-6-6-----------------|
E:|---------------------------------------------------|

E:|---------------------------------------------------|
B:|---------------------------------------------------|
G:|----------13-13-13-11-11------------11-11-11-13-13-|
D:|---9-9-9-13-13-13-11-11-11-11-11-11-11-11-13-13----|
A:|---9-9-9-11-11-11--9--9--11-11-11-9---9--9--11-11--|
E:|---7-7-7--------------------9---9---9--------------|

E:|---------------------------------------------------|
B:|---------------------------------------------------|
G:|---------------------------------------------------|
D:|----------9---------------9------------------------|
A:|---9-9-9-9-9-9--9-9-11-11-111-11-13-13-13-11-11----|
E:|-------------------------------------9--9--9---9---|

E:|---------------------------------------------------|
B:|---------------------------------------------------|
G:|---------------------------------------------------|
D:|---8-8-8-9-9-9-8-8-6-6-6-8-8-8-9-8-----------------|
A:|---6-6-6-6-6-6-6-6-6-6-6-6-6-6-6-6-----------------|
E:|---------------------------------------------------|

E:|---------------------------------------------------|
B:|---------------------------------------------------|
G:|----------13-13-13-11-11------------11-1-13-13-----|
D:|---9-9-9-13-13-13-11-11-11-11-11-11-11-11-13-13----|
A:|---9-9-9-11-11-11--9--9--11-11-11-9---9--9--11-11--|
E:|---7-7-7--------------------9---9---9--------------|

bridge


D5  A5
D5  A5
D5  A5


 REPITE
Tap to rate this tab
 
# A B C D E F G H I J K L M N O P Q R S T U V W X Y Z