Song name
# A B C D E F G H I J K L M N O P Q R S T U V W X Y Z

Misc Unsigned Bands - Purple Giraffe - Make Love To A Tree tab

Band: Purple Giraffe
Song: Make Love to a Tree
Tabber: Ricky Cross (rythm guitar of purple giraffe)
Tunning: Standard


Chorus/Main Riff

------------------------------------------------------------|
------------------------------------------------------------|
------------------------------------------------------------|
----6--x--5--x---4--x---2--2--------------------------------|
---6--x--5--x---4--x---2--2---------------------------------|
--4--x--3--x--2---x--0---0----------------------------------|


Verse:

----------------------|
----------------------|
----------------------|
---2--2--2--2--2--2---|
--2--2--2--2--2--2----|
-0--0--0--0--0--0-----|


Solo:

haven't created a solo for the song yet.
Tap to rate this tab
# A B C D E F G H I J K L M N O P Q R S T U V W X Y Z