Song name
# A B C D E F G H I J K L M N O P Q R S T U V W X Y Z

Misc Unsigned Bands - Confusedness - Mr Marsh tab

The Confusedness - a local band

Mr Marsh, their best (?) song

Standard tuning

VERSE
----------------------------------------|
----------------------------------------|
----------------------------------------|
-7-7-7-7-8-8-8-8-9-9-9-9-10-10-10-10----|
-7-7-7-7-8-8-8-8-9-9-9-9-10-10-10-10----|
-5-5-5-5-6-6-6-6-7-7-7-7-8--8--8--8-----|

PRECHORUS

----------------------------------------|
----------------------------------------|
-7-7-7-7-7-7-7-7------------------------|
-7-7-7-7-7-7-7-7-5-5-5-5-5-5-5-5--------|
-5-5-5-5-5-5-5-5-5-5-5-5-5-5-5-5--------|
-----------------3-3-3-3-3-3-3-3--------|

CHORUS

----------------------------------------|
12-14-12-14-12-14-12-14-----------------|
----------------------------------------|
----------------------------------------|
----------------------------------------|
----------------------------------------|
Tap to rate this tab
# A B C D E F G H I J K L M N O P Q R S T U V W X Y Z