Song name
# A B C D E F G H I J K L M N O P Q R S T U V W X Y Z

Misc Unsigned Bands - Dead Sound - Perpetraters tab

E:-------------------------------------------------------------------|
B:-------------------------------------------------------------------|
G:-------------------------------------------------------------------|
D:-------------------------------------------------------------------|
A:----9---9---9---9---7---7---7---7----------------------------------|
E:---9---9---9---9---7---7---7---7-----------------------------------|

        ^----------- play 4x slow down on the fourth one tell you are to slow to play
and stop. then do this part sorta fast. ( the next part)

E:-------------------------------------------------------------------|
B:-------------------------------------------------------------------|
G:-------------------------------------------------------------------|
D:---9-9-9-9-9--7-7-7-7---9-9-9-9-9--7-7-7-7-------------------------|
A:---9-9-9-9-9--7-7-7-7---9-9-9-9-9--7-7-7-7-------------------------|
E:---7-7-7-7-7--7-7-7-7---7-7-7-7-7--7-7-7-7-------------------------|

        ^------- play 4x times slow down on the fourth one tell its to slow to play
and stop. now you just played the opening to my bands first sound.

Singer: Jason Baker
Lead Guitarist: Eugene Exsamitas
Rytheme Guitarist: Jeff Klippel
2nd Rytheme Guitarist: Alexs Dufek
Bass Guitarist: Ray (unknown last name)
Drumer: Aaron ( unknown last name)

This is Jeff peace out.
Tap to rate this tab
# A B C D E F G H I J K L M N O P Q R S T U V W X Y Z