Song name
# A B C D E F G H I J K L M N O P Q R S T U V W X Y Z

Misc Unsigned Bands - Inacun - Going Away For A While tab

unsigned band

band: Inacun (from Bicester in oxfordshire)
song: going away for a while

band members: phil warson- guitar n vocals
              ollie brennan- bass
              andy payne- drums

small local punk band. not yet released an ep/album.

bass riff

G/------------------------------------------------------------------/
D-----------------2-2-2-4-4-4-4-4-----------------------------------/
A-0-0-0-0-0-0-0-0-----------------4-4-4-4-4-4-4-4-5-5-5-5-5-5-4h5p4-/
E-------------------------------------------------------------------/


guitar riff

e/-----------------------------------------/
B/-----------------------------------------/
G/-----------------------------------------/
D/-7-7-7-6-6-------------------------------/
A/-----------7~--7--4~--4--2-2-2-0-0-0-0-0-/
E/-----------------------------------------/

bass line plays through twice the guitar comes in. not complete song.
visit www.inacun.cjb.net

tabbed by ght 24-12-04
Tap to rate this tab
 
# A B C D E F G H I J K L M N O P Q R S T U V W X Y Z