Song name
# A B C D E F G H I J K L M N O P Q R S T U V W X Y Z

Misc Unsigned Bands - Staple Gun - Confuse tab

Randomness tabs and i made up a random word for the name
Its dropped a full step

Intro
D|---------------------------------------------------------------|
A|---------------------------------------------------------------|
F|----9-------9--------------------------------------------------|
C|--7---7---7---7-----9-------9-------7-------7-------9-------9--|
G|8-------8---------7---7---7---7---5---5---5---5---7---7---7---7|
D|----------------8-------8-------6-------6-------8-------8------|

D|---------------------------------------------------------------|
A|---------------------------------------------------------------|
F|----9-------9--------------------------------------------------|
C|--7---7---7---7-----9-------9-------7-------7-------5-------5--|
G|8-------8---------7---7---7---7---5---5---5---5---3---3---3---3|
D|----------------8-------8-------6-------6-------4-------4------|

Chorus
D|---------------------------------------------------------------|
A|---------------------------------------------------------------|
F|---------------------------------------------------------------|
C|---------------------------------------------------------------|
G|5-5-5-5-5-5-5-5-7-7-7-7-7-7-7-7-4-4-4-4-4-4-4-4-8-8-8-8-8-8-8-8|
D|3-3-3-3-3-3-3-3-5-5-5-5-5-5-5-5-2-2-2-2-2-2-2-2-6-6-6-6-6-6-6-6|

Verse
D|----6-------6-------6-------6-------6-------6-------6-------6--|
A|--5---5---5---5---5---5---5---5---5---5---5---5---5---5---5---5|
F|6-------6-------6-------6-------6-------6-------6-------6------|
C|---------------------------------------------------------------|
G|---------------------------------------------------------------|
D|---------------------------------------------------------------|

Interlude
D|-----------------------------------------------------------------------|
A|-----------------------------------------------------------------------|
F|12-12-12-12-12-12-12-12-14-14-14-14-14-14-14-14-11-11-11-11-11-11-11-11|
C|-0--0--0--0--0--0--0--0--0--0--0--0--0--0--0--0--0--0--0--0--0--0--0--0|
G|10-10-10-10-10-10-10-10-12-12-12-12-12-12-12-12--9--9--9--9--9--9--9--9|
D|-----------------------------------------------------------------------|

D|-----------------------|
A|-----------------------|
F|15-15-15-15-15-15-15-15|
C|-0--0--0--0--0--0--0--0|
G|13-13-13-13-13-13-13-13|
D|-----------------------|

Order

Intro
Chorus X 2
Verse X 2
Chorus X 4
Interlude X 2
Chorus X 4
Tap to rate this tab
 
# A B C D E F G H I J K L M N O P Q R S T U V W X Y Z