Song name
# A B C D E F G H I J K L M N O P Q R S T U V W X Y Z

Misc Unsigned Bands - Blackened Star - Neverending Days tab

----------------------------------------------------------------------------
                   **Never Ending Days - Blackened Star**
----------------------------------------------------------------------------


PLEASE NOTE
This file is the my own work. You may only use this file for private study, scholarship, or research.


Hope you like it i made it :)

Tabbed by Derek
h-hammer on
p-pull off
s-slide
/-strum up
\-strum back


strumming pattern #1  I-///\\//\/\
strumming pattern #2 II-////\\//\/\
strumming pattern #3III-/\/


e-2-----2h3p2----2-----0---------0--------2-----2h3p2----2-3s5----------|
B---2----------3---3-----1---1h3---1--------3----------3----------------|
G-----3--------------------0---------0--------2-------------------------|
D-0------------------------------------2--0-----------------------------|
A----------------------3------------------------------------------------|
E-----------------------------------------------------------------------|

                      ///\\//\/\ ///\\//\/\ ///\\//\/\ ///\\//\/\
e-0------3----------2-2222222222 0000000000 3333333333 0000000000-|
B---1------1-3--------3333333333 1111111111 3333333333 1111111111-|
G-----0--------0------2222222222 0000000000 0000000000 0000000000-|
D----------------2--0-0000000000 2222222222 0000000000 2222222222-|
A-4----------------------------- 3333333333 2222222222 3333333333-|
E------------------------------- 3333333333 3333333333 3333333333-|

  ////\\//\/\ ///\\//\/\ ///\\//\/\ /\/
e 22222222222 3333333333 0000000000 333
B 33333333333 3333333333 1111111111 333 repeat from beggining
G 22222222222 0000000000 0000000000 000
D 44444444444 0000000000 2222222222 000
A ----------- ---------- 3333333333 222-|
E ----------- ---------- 3333333333 333-|
Tap to rate this tab
 
# A B C D E F G H I J K L M N O P Q R S T U V W X Y Z