Song name
# A B C D E F G H I J K L M N O P Q R S T U V W X Y Z

Misc Unsigned Bands - Blackened Star - Outlaw tab

----------------------------------------------------------------------------
                      **Outlaw - Blackened Star**
----------------------------------------------------------------------------


PLEASE NOTE
This file is the my own work. You may only use this file for private study, scholarship, or research.


Hope you like it i made it :)

Tabbed by Derek
email me with your comments crzybmxer79@netscape.net

h-hammer on
p-pull off
s-slide
/-strum up
\-strum back
v-virato

e-------------------------------------------------------------------|
B-------------------------------------------------------------------|
G-------------------------------------------------------------------|
D---------------2h4p2---2v---4s7-6-4-2-2h4p2---2--------------------|
A------0h2- 2h4-------4----------------------4---4-2----------------|
E--0h2--------------------------------------------------------------|

e----------------------------------------------------------------------|
B----------------------------------------------------------------------|
G----------------------------------------------------------------------|
D----------------2h4p2---2v-2-2h4p2----2-------------------------------|
A------0h2-2h4---------4-------------4---4--2------0-------------------|
E--0h2-----------------------------------------0h2---------------------|
Tap to rate this tab
# A B C D E F G H I J K L M N O P Q R S T U V W X Y Z