Guitaretab - guitar tabs
Song name
# A B C D E F G H I J K L M N O P Q R S T U V W X Y Z

Misc Unsigned Bands - String Bleed - No Love Lust tab

 This is my band a song wrote by me, in Georgia

Intro  (Clean)
e---------------------------------------------------------------------------|
B---------------------------------------------------------------------------|
G---------------------------------------------------------------------------|
D-------12--------10-------10-------0-----10--------------------------------|
A-----0---------0--------0-------10---10------------------------------------|
E--12--------10--------8-------8--------------------------------------------|
[ Tab from: http://www.guitaretab.com/m/misc-unsigned-bands/55547.html ]
Palm Mute Verse  (with Distortion)
e---------------------------------------------------------------------------|
B---------------------------------------------------------------------------|
G---------------------------------------------------------------------------|
D--7-7-7-7-7-7-7-7-7-7-5-5-5-5-5-5-5-5-3-3-3-0-0-3-3-5-5-7-7-9-9------------|
A--7-7-7-7-7-7-7-7-7-7-5-5-5-5-5-5-5-5-3-3-3-0-0-3-3-5-5-7-7-9-9------------|
E--5-5-5-5-5-5-5-5-5-5-5-5-5-5-5-5-5-5-5-5-5-5-5-5-5-5-5-7-7-9-9------------|

Chorus fast  (Distortion)
e---------------------------------------------------------------------------|
B---------------------------------------------------------------------13-14-|
G---------------------------------------------------------------------14-13-|
D---------------------------------------------------------------------------|
A--12-12-12-12-12-14-14-14-14-10-10-12-10-12-10-12-12-12-12-12-14-10-14-----|
E--12-12-12-12-12-12-12-12-12--8--8--8--8--8--8-10-10-10-10-10-10--8-10-----|

 intro
 verse
 chorus
 verse
 chorus
 outtro (intro)
Related for String Bleed - No Love Lust tab
×
String Bleed - No Love Lust