Song name
# A B C D E F G H I J K L M N O P Q R S T U V W X Y Z

Misc Unsigned Bands - White Shadow - The Surfers Riff tab

white shadow is my garage band that i formed with my frends i wanted to share our new
song surfers riff with you 

by will stratton(main singer of band)

any questions? paragrintook@hotmail.com

|----------------------------------------------------|
|----------------------------------------------------|
|----------------------------------------------------|
|----------------------------------------------------|
|----------------------------------------------------| /____
|-2(x8)-5(x8)-0(x8)-2(x8)2(x8)-5(x8)-0(x8)-2--2--2--2| \   |
                                                           |
|-------------------------------0-|                        |   
|-------------------------------0-|                        |
|-------------------------------0-|                        |
|-------------------------------2-|x8-----------------------
|-------------------------------2-|
|-002030-53-002030-53-002030-53---|
                               /\               bridge
                              /| \                |
                               |__________________|
Tap to rate this tab
# A B C D E F G H I J K L M N O P Q R S T U V W X Y Z