Song name
# A B C D E F G H I J K L M N O P Q R S T U V W X Y Z

Misc Unsigned Bands - The Nameless - Wasted Life tab

Band--The Nameless
Song--wasted life
Tabber--wiccan205

This is all my own work. If u have any problems with it e-mail me.


   e|-------------------------------------------------|
   B|-------------------------------------------------|
   G|-------------------------------------------------|
   D|-------------------------------------------------|
   A|----0--0--0--0--6-7-5-8--0--0--0--0--2--0--1--0--|
   D|----0--0--0--0--6-7-5-8--0--0--0--0--2--0--1--0--| 



         repeat 3x
   e|-------------------------------------------------|
   B|-------------------------------------------------|
   G|-------------------------------------------------|
   D|-------------------------------------------------|
   A|--6-7-5-8--0--0--0--0--2--0--1--0----------------|
   D|--6-7-5-8--0--0--0--0--2--0--1--0----------------|
Tap to rate this tab
# A B C D E F G H I J K L M N O P Q R S T U V W X Y Z