Song name
# A B C D E F G H I J K L M N O P Q R S T U V W X Y Z

Misc Unsigned Bands - The Bonapartes - Stupid Punk Girl tab

-----------------------------------------------------------------
STUPID PUNK GIRL (updated) - THE BONAPARTES
-----------------------------------------------------------------
Tabbed by: Pauli Bonaparte
Email: redstarblu@hotmail.com

Tuning:EADGBe

e|-12*--------------------------------------------------------------|
B|-12*--------------------------------------------------------------|
G|-12*--------------------------------------------------------------|
D|------------------------------------------------------------------|
A|------------------------------------------------------------------|
E|---------------------------------------------------\--------------|

e|---------------------------------------------------------------|
B|---------------------------------------------------------------|
G|-------------------------------------9-9-9-9-9-9-9-9-9-9-9-9-9-|
D|-------------------------------------7-7-7-7-7-7-7-7-7-7-7-7-7-|
A|---0-5-0-5-0-5-0-5-0-7-0-7-0-7-0-7-0---------------------------|
E|---0-3-0-3-0-3-0-3-0-5-0-5-0-5-0-5-0---------------------------|
     (all downstrokes)			  (quickly strummed except 1st3)
e|---------------------------------------------------------------|
B|---------------------------------------------------------------|
G|-9-9-9-9-9-9-9-9-9---------------------------------------------|
D|-7-7-7-7-7-7-7-7-7---------------------------------------------|
A|---------------------------------------------------------------|
E|---------------------------------------------------------------|x4

Chorus

e|---------------------------------------------------------------|
B|---------------------------------------------------------------|
G|9-9-9-9-9-9/-12-12-12-12-12-12---------------------------------|
D|-------------------------------12-12-12-12-12-12-12-12-12-12---|
A|7-7-7-7-7-7/-10-10-10-10-10-10---------------------------------|
E|-------------------------------10-10-10-10-10-10-10-10-10-10---|

e|---------------------------------------------------------------|
B|---------------------------------------------------------------|
G|---------------------------------------------------------------|
D|12-12-12-12----------------------------------------------------|
A|---------------------------------------------------------------|
E|10-10-10-10----------------------------------------------------|x4

ending

e|---------------------------------------------------------------|
B|---------------------------------------------------------------|
G|---------------------------------------------------------------|
D|0-7-0-7-0-7-0-7-0-5-0-5-0-5-0-5-0-9-9/12-9-9-9/12-9-9-9/12-----|
A|0-5-0-5-0-5-0-5-0-3-0-3-0-3-0-3-0-7-7/10-7-7-7/10-7-7-7/10-----|
E|---------------------------------------------------------------|

e|---------------------------------------------------------------|
B|---------------------------------------------------------------|
G|---------------------------------------------------------------|
D|9-9-9/12-------------------------------------------------------|
A|7-7-7/10-------------------------------------------------------|
E|---------------------------------------------------------------|x2

e|---------------------------------------------------------------|
B|---------------------------------------------------------------|
G|---------------------------------------------------------------|
D|---------------------------------------------------------------|
A|-0-7-0-7-0-7-0-7-0-5-0-5-0-5-0-5-------------------------------|
E|-0-5-0-5-0-5-0-5-0-3-0-3-0-3-0-3-------------------------------|x3

e|---------------------------------------------------------------|
B|---------------------------------------------------------------|
G|---------------------------------------------------------------|
D|------2--------------------------------------------------------|
A|0-7-5-2--------------------------------------------------------|
E|0-5-3-0--------------------------------------------------------|
                
e|---------------------------------------------------------------|
B|---------------------------------------------------------------|
G|--------------------------------------------------------\11----|
D|----------------2-----2-2-2-2-2-2-2-2-2-2-2-2-2*--------\10----|
A|0-5-0-5-0-5-0-5-2-----2-2-2-2-2-2-2-2-2-2-2-2-2*--------\12----|
E|0-3-0-3-0-3-0-3-0-----0-0-0-0-0-0-0-0-0-0-0-0-0*---------------|



STRUCTURE:

VERSE
CHORUS
VERSE
CHORUS
ENDING
Tap to rate this tab
# A B C D E F G H I J K L M N O P Q R S T U V W X Y Z