Song name
# A B C D E F G H I J K L M N O P Q R S T U V W X Y Z

Misc Unsigned Bands - Draxsis - Lost In Seclusionlive tab

Ok, This song my band wrote and we are working our way to the top, many friends wanted 
tabbed so I just tabbed it for them.
Strum this through the whole song just changing from clean to distortion.


Verse 1 4x
e----------------------------------------|
B----------------------------------------|
G--5-5-5-5-5-4-4-4-4-4-2-2-2-2-2-4-4-4-4-|
D--7-7-7-7-7-5-5-5-5-5-3-3-3-3-3-5-5-5-5-|
A--7-7-7-7-7-5-5-5-5-5-3-3-3-3-3-5-5-5-5-|
E----------------------------------------|


Chorus(distortion)
e----------------------------------------|
B----------------------------------------|
G--5-5-5-5-5-4-4-4-4-4-2-2-2-2-2-4-4-4-4-|
D--7-7-7-7-7-5-5-5-5-5-3-3-3-3-3-5-5-5-5-|
A--7-7-7-7-7-5-5-5-5-5-3-3-3-3-3-5-5-5-5-|
E----------------------------------------|

Bridge  1x
e-------------------------------------------------|
B-----------0-------------0--------------0--------|
G--5-5-5-5-5-0---4-4-4-4-4-0----2-2-2-2-2-0-------|
D--7-7-7-7-7--7--5-5-5-5-5--5---3-3-3-3-3--3------|
A--7-7-7-7-7---7-5-5-5-5-5---5--3-3-3-3-3---3-2-0-|
E-------------------------------------------------|

Verse 2 4x
e----------------------------------------|
B----------------------------------------|
G--5-5-5-5-5-4-4-4-4-4-2-2-2-2-2-4-4-4-4-|
D--7-7-7-7-7-5-5-5-5-5-3-3-3-3-3-5-5-5-5-|
A--7-7-7-7-7-5-5-5-5-5-3-3-3-3-3-5-5-5-5-|
E----------------------------------------|


Chorus(distortion)
e----------------------------------------|
B----------------------------------------|
G--5-5-5-5-5-4-4-4-4-4-2-2-2-2-2-4-4-4-4-|
D--7-7-7-7-7-5-5-5-5-5-3-3-3-3-3-5-5-5-5-|
A--7-7-7-7-7-5-5-5-5-5-3-3-3-3-3-5-5-5-5-|
E----------------------------------------|


Chorus(Clean)
e----------------------------------------|
B----------------------------------------|
G--5-5-5-5-5-4-4-4-4-4-2-2-2-2-2-4-4-4-4-|
D--7-7-7-7-7-5-5-5-5-5-3-3-3-3-3-5-5-5-5-|
A--7-7-7-7-7-5-5-5-5-5-3-3-3-3-3-5-5-5-5-|
E----------------------------------------|
Tap to rate this tab
 
# A B C D E F G H I J K L M N O P Q R S T U V W X Y Z