Song name
# A B C D E F G H I J K L M N O P Q R S T U V W X Y Z

Misc Unsigned Bands - Say Anything - Walk Through Hell tab

Say Anything is...
Max Bemis (guitar, vocals, etc.)
Coby Linder (Drums)
Kevin Seaton (Bass)
Casper Adams (Guitar).

Say Anything's debut, a punk rock musical, titled "Say Anything Is A Real Boy." will be
out August 3rd, 2004 on Doghouse Records. The album was produced by Tim O'Heir
(Superdrag, Dinosaur Jr., Sebadoh, All American Rejects) and Stephen Trask (Hedwig and
The Angry Inch) http://www.sayanythingmusic.com

"Walk through Hell" By Say Anything



e |------------------------------------------------------------------------|
B |------------------------------------------------------------------------|
G |---------6-6-----6------6-6-----6------4-4----4-----7-7-----------------|
D |---------7-7-----7------7-7-----7------6-6----6-----7-7-----------------|
A |---------------------9-9-----9-9---7-7-----7-7--5-5---------------------|
E |----5-5------5-5--------------------------------------------------------|


e |-------------------------------------------------------------------------|
B |-------------------------------------------------------------------------|
G |-------------------------------------------------7-----------------------|
D |------7--7--7--7--7--7--7--7------------------7--------------------------|
A |----5--5--4--4----------------------------------x------------------------|
E |------------------7--7--5--5--------------------7------------------------|


e |------------------------------------------------------------------------|
B |------------------------------------------------------------------------|
G |-----7-----1-----7-----9------------------------------------------------|
D |-----7--7--2--4--7--4--9------------------------------------------------|
A |-----5--7--2--4--5--4--7------------------------------------------------|
E |-----5--0-----2-----2---------------------------------------------------|
Tap to rate this tab
 
# A B C D E F G H I J K L M N O P Q R S T U V W X Y Z