Guitaretab - guitar tabs
Song name
# A B C D E F G H I J K L M N O P Q R S T U V W X Y Z

Misc Unsigned Bands - Say Anything - Presidential Suite tab

Say Anything is...
Max Bemis (guitar, vocals, etc.)
Coby Linder (Drums)
Kevin Seaton (Bass)
Casper Adams (Guitar).

Say Anything's debut, a punk rock musical, titled "Say Anything Is A Real Boy." will
be out August 3rd, 2004 on Doghouse Records. The album was produced by Tim O'Heir
(Superdrag, Dinosaur Jr., Sebadoh, All American Rejects) and Stephen Trask (Hedwig and
The Angry Inch)
 "Presidential Suite" by Say Anything
e |---------------------------------|
B |-2--------------------------5----|
G |-2----2---2---4---6---6----------|
D |-2-------------------------------|
A |-0-------------------------------|
E |---------------------------------|
[ Tab from: ]
e |-----------------------------------|
B |-2---------------------------------|
G |-2--------2----2----2--------------|
D |-2---2----0----0----0--------------|
A |-0---4---------5----4--------------|
E |-----------------------------------|

e |------------------------------------------------------------------|
B |------------------------------------------------------------------|
G |-4------------7------harmonics on---------------------------------|
D |-4---4---5---7--------5th fret------------------------------------|
A |-2---4---5---5----------------------------------------------------|
E |-----2---3--------------------------------------------------------|

e |----------------------------------------|
B |----------------------------------------|
G |-------------------------------2--------|
D |---5---------------------------2--------|
A |---5---------------------------2--------|
E |---3---------------------------0--------|
Related for Say Anything - Presidential Suite tab