Song name
# A B C D E F G H I J K L M N O P Q R S T U V W X Y Z

Misc Unsigned Bands - Signal Zero - Spreading Faith tab

This song comes from the band SIGNAL ZERO new metal coming into the scene


song:Spreading faith
drop d:Dadgbe
distortion whole song
Intro
      P.m                    p.m
D--0-0-0-0---5-6------------------------------|
a--0-0-0-0---5-6--3x-then---0-5-6-5-7-6-5/3---|
d--0-0-0-0---5-6------------------------------|5x
g---------------------------------------------|
b---------------------------------------------|
e---------------------------------------------|
Verse 1
D--0-0-0-0--6-5/3-----0-5-6-5-7-6-5/3-----------------------------|
a--0-0-0-0--6-5/3-3x--0-5-6-5-7-6-5/3-----------------------------|
d--0-0-0-0--6-5/3-----0-5-6-5-7-6-5/3-----------------------------|
g-----------------------------------------------------------------|
b-----------------------------------------------------------------|
e-----------------------------------------------------------------|
Chorus in the intro
thats about it for the song. The 2nd verse is just like the 1st. just all that is missing is the solo.
peace out fools!!!
Tap to rate this tab
 
# A B C D E F G H I J K L M N O P Q R S T U V W X Y Z