Song name
# A B C D E F G H I J K L M N O P Q R S T U V W X Y Z

Misc Unsigned Bands - Enput - The Lies Of A Dead Man tab

This song is by my band so enjoy
its basic

palm mute is x under
u know the rest

1-1-1-1-1-1-1-1-1-1-1-1-1-1-1-1-1-----|
1-1-1-1-1-1-1-1-1-1-1-1-1-1-1-1-1-----|
1-1-1-1-1-1-1-1-1-1-1-1-1-1-1-1-1   1-|2x
1-1-1-1-1-1-1-1-1-1-1-1-1-1-1-1-1-----|
1-1-1-1-1-1-1-1-1-1-1-1-1-1-1-1-1-----|
--------------------------------------|
x x x x x x x x x x x x x x x x x


1/3/2----8h9p7-|
---------------|
---------------|
---------------|
---------------|
---------------|


and the end of it is
lead guitar
1h3--22-55--666--1h3-|
---21--9--32---56----|
---------------------|
---------------------|
---------------------|
---------------------|

if you wanna talk to me my sn is enput
Tap to rate this tab
# A B C D E F G H I J K L M N O P Q R S T U V W X Y Z