Song name
# A B C D E F G H I J K L M N O P Q R S T U V W X Y Z

Misc Unsigned Bands - Enput - You Die tab

Help us improve GuitareTab! Take a short survey!
this is another song by my band!

you know
Tuning drop d

[------------------------------------]
[0-0-8-9/7---------------------------]
[------------------------------------]
[------------------------------------]         x5
[------------------------------------]
[-------------0-0-2/7--0-0-2/9-------]

This is the main chorus

[------------------------------------]
[------------------------------------]
[------------------------------------]   x6
[------------------------------------]
[------------------------------------]
[-1-2/5--1-2/6--8h9p7----------------]


this part is really cool

[---------------------------]
[---------------------------]
[1--------1-------1---------]
[1--------1-------1---------]
[1--------1-------1---------]
[1--------1-------1---------]
pm all of this 1 above



outro

[------------------------------------]
[------------------------------------]
[------------------------------------]
[------------------------------------]
[------------------------------------]
[-----0-0-11^--0-0-10^----0-0-0-2/12-]
Related for Enput - You Die tab