Song name
# A B C D E F G H I J K L M N O P Q R S T U V W X Y Z

Misc Unsigned Bands - Ripper Ettis - Forgotten Song tab

----------------------------------------------------------------------------
			     Forgoten Song - Ripper Etti's
----------------------------------------------------------------------------
Hey this is my first official tab on here and my first best song, please do not take
credit for this song, for it is my own work
Tabbed by:Ryan Riparetti
Email: Hoopjam2003@aol.com or rriparetti@rlstevenson.org
AIM Screen Name: hoopjam2003
Tuning: standard EADGBe
INTRO: the easy and free part of the song, other than the solo.
e|-------------------------------------------------------------------------|
B|-------------------------------------------------------------------------|
G|-------------------------------------------------------------------------|
D|-------------------------------------------5---0----5---------3---0--3---|
A|----3---0---3-------5----0-----5------3--------------------1-----------0-|
E|-1--------------3--------------------------------------------------------|
 Repeat that twice times then go to the VERSE:    repeat three times
e|---2---2---2---2---2---2---2---2------------------------------------------
B|---3---0---3---0---3---0---3---0-----------------------------------------|
G|---2---2---2---2---2---2---2---2-----------------------------------------|
D|---0---0---0---0---0---0---0---0---2---2---2---2---2---2---2---2---------|
A|-----------------------------------2---2---2---2---2---2---2---2---------|
E|-----------------------------------0---0---0---0---0---0---0---0---------|
PRE-CHORUS: was very easy to make, shouldnt be hard. repeat once
e|-------------------------------------------------------------------------|
B|-------------------------------------------------------------------------|
G|--------------------------------------------2---2---2---2---2---2---2---2|
D|-2---2---2---2---2---2---2---2------00------2---2---2---2---2---2---2---2|
A|-2---2---2---2---2---2---2---2------00------0---0---0---0---0---0---0---0|
E|-0---0---0---0---0---0---0---0------00-----------------------------------|
CHORUS: is the best part, all power chords, F5 A5 A#5 G5 to A5 repeat three
e|-------------------------------------------------------------------------|
B|-------------------------------------------------------------------------|
G|-------------------------------------------------------------------------|
D|----3----7----8----5----7----5-------------------------------------------|
A|----3----7----8----5----7----5-------------------------------------------|
E|----1----5----6----3----5----3-------------------------------------------|
Go back to the verse, play it two times, play the prechorus once, and again play the
chorus three times. The BRIDGE: is the hardest part
e|-------------------------------------------------------------------------|
B|-------------------------------7--7b---7b--7b--7b--7b--7b--7b--7b--7b--7b|
G|----------8b----6b----4b----3b/8-------8b--8b--8b--8b--8b--8b--8b--8b--8b|
D|--------9----7----5----4-------------------------------------------------|
A|------9----7----5----4---------------------------------------------------|
E|----7----5----3----2-----------------------------------------------------|
And heres the SOLO:
e|10b---10--8--10---8b---8--6--8---6b---6--4--6---4b---4--2--4--2222--4444-|
B|10b---------------8b-------------6b-------------4b------------2222--4444-|
G|-------------------------------------------------------------------------|
D|-------------------------------------------------------------------------|
A|-------------------------------------------------------------------------|
E|-------------------------------------------------------------------------|
Verse two times, pre chrous once, then chorus, end final chord on F5 OUTRO:
e|3-------3---------2---------2----------1---------------------------------|
B|---1---------1---------1---------1-----------1---------------------------|
G|---------------------------------------------------------5--6------------|
D|-----------------------------------------------------------------2-------|
A|-------------------------------------------------------------------------|
E|-------------------------------------------------------------------------|


| /  slide up
| \  slide down
| h  hammer-on
| p  pull-off
| ~  vibrato
| +  harmonic
| x  Mute note
===============================================================================
Tap to rate this tab
 
# A B C D E F G H I J K L M N O P Q R S T U V W X Y Z