Song name
# A B C D E F G H I J K L M N O P Q R S T U V W X Y Z

Misc Unsigned Bands - Pmf - Hells Calling tab

intro    #1 IT IS OUR GARAGE BAND WE DO NOT HAVE A RECORD DEAL
------------------------|
------------------------|
------------------------|
---------2-0------------|
----4-0-------2-0-------|
-2----------------------|


        #2
------------------------------|  RIFF
------------------------   #1-|
------------------------   #2-|
---------2-0------------   #3-|
----4-0-------2-0-------   #2-|
-0----------------------------|  LAST NOTE EGNOR THE OPEN NOTE


           #3
------------------------|
------------------------|
------------------------|
---------2-0------------|
----4-0-------2-0-------|
-2----------------------|
Tap to rate this tab
# A B C D E F G H I J K L M N O P Q R S T U V W X Y Z