Song name
# A B C D E F G H I J K L M N O P Q R S T U V W X Y Z

Misc Unsigned Bands - 5 And Dime - Simple Thoughts tab

5 and dime is a band of 13 year olds from red wing, minnesota.
vocals/lead guitar:Sam brady
bass guitar:Patrick orr
Drums:Danny bell

Intro:
e--------------------------------------------|
b--------------------------------------------|
g----------------------------------  repeat--| 3x
d--------------------------------------------|
a-5-55875----------5-55875-------------------|
e--------6-6666888--------6-6666555----------|

e----------------------------------|
b----------------------------------|
g----------------------------------|
d----------------------------------|
a-5-55875--------------------------|
e--------6-6666888-5-55556-6668888-|

Verse:
e---------------------------------|
b---------------------------------|
g---------------------------------|
d---------------------------------|
a-5-5-5-5-8-8---------------------|
e-------------5-5-6-6-6-6-5-5-5-5-|

e-----------------------------------------------------|
b-----------------------------------------------------|
g-----------------------------------------------------|
d-------------------------------- repeat whole verse--| 4x
a-5-5-5-5-8-8-----------------------------------------|
e-------------5-5-6-6-6-6-8-8-8-8---------------------|

Chorus:
e---------------------------------------------------|
b---------------------------------------------------|
g----5----------------5-----------------------------|
d-7--x-------------7--x--------5555  repeat chorus--| 4x
a-5--8-7-8-8887777-5--8-7-8-888xxxx-----------------|
e------5-6-6665555------5-6-6668888-----------------|
Tap to rate this tab
# A B C D E F G H I J K L M N O P Q R S T U V W X Y Z