Song name
# A B C D E F G H I J K L M N O P Q R S T U V W X Y Z

Misc Unsigned Bands - 5 And Dime - Even The Score tab

 Intro:  (play 4x)
|--------------------|
|--------------------|
|--------------------|
|--------------------|
|---55-3------99-7---|
|-3------3--7------5-|

Verse:   (play 6x)
|--------------------------------------------------|
|--------------------------------------------------|
|--------------------------------------------------|
|--------------------------------------------------|
|-3--3--3-5--5--5-5--5--5-7--7--7-9--9--9-7--7--7--|
|---3--3-3--3--3-3--5--5-5--5--5-5--7--7-7--5--5-5-|

Pre-Chorus:  
|------------------|
|------------------|
|------------------|
|------------------|
|-5555555577777777-|
|-3333333355555555-|

Chorus:   (play 4x)
|------------------|
|------------------|
|------------------|
|------------------|
|-99-55-2------4-2-|
|-77-33-0------2-0-|
Tap to rate this tab
 
# A B C D E F G H I J K L M N O P Q R S T U V W X Y Z