Guitaretab - guitar tabs
Song name
# A B C D E F G H I J K L M N O P Q R S T U V W X Y Z

Misc Unsigned Bands - Underdogs - Dreaming Of You tab

Band: The Underdogs
Song: Dreaming of You (Coral Cover)
Tabber: Daniel Young

Intro: Bass Enters

|-2-2---2-2--|------------|
|----2-----2-|-3-3---3-3--|
|------------|----3-----3-|
|------------|------------|  x2

Verse 1:
Am
It's up in my
              F
heart when it skips a beat 
Am                           F
Can't feel no pavement right under my feet 


Chorus:
C                    
Up in my lonely room
G                     F
When I'm dreaming of you                 
             Am
Oh what can I do
                  F
I still need you, but
             Am       F  E
I don't want you now


Verse 2:
[ Tab from: http://www.guitaretab.com/m/misc-unsigned-bands/56700.html ]
Am                   F
When I'm down and my hands are tied (hands are tied)
Am                       F
I cannot reach a pen for me to draw the line (draw the line)
Am                    F
From this pain I just can't disguise
Am                      F
Its gonna hurt but I'll have to say goodbye

Chorus

Solo:

|-------------------|----------|------------------------|
|-1-0-1-3-1-0--1-1-|----------|-1-0-1-3-10--1-1--3-1-|
|--------------2----|--0-0-0-2-|--------------2---------|
|-------------------|-2-2-2----|------------------------|
|-------------------|----------|------------------------|
|-------------------|----------|------------------------|

|-0-3-0-3-0-3-|-----------0-1-|-1-0-1-0---|-----0-----|
|-------------|---3-3-3-3-----|---------1-|-1-3---3-1-|
|-------------|---------------|-----------|-----------|
|-------------|---------------|-----------|-----------|
|-------------|---------------|-----------|-----------|
|-------------|---------------|-----------|-----------|

|-----0-----|------|
|-1-3---3-1-|-1--0-|
|-----------|------|
|-----------|------|
|-----------|------|
|-----------|------|


Am  F  Am  F 

Chorus
Related for Underdogs - Dreaming Of You tab