Song name
# A B C D E F G H I J K L M N O P Q R S T U V W X Y Z

Misc Unsigned Bands - Natural Effect - Painkiller tab

new artist
Natural Effect
Painkiller
C# tuning
()= palm mute

Intro
---------------------------------------|
---------------------------------------|
---------------------------------------|
-00----2-3-5-3--00----2-3--------------|
-00--0----------00--0----3-2-----------|
-00-------------00---------------------|

Verse
-----------------------------------------------------------------|
-----------------------------------------------------------------|
-----------------------------------------------------------------|
-00-00-00--(8888-555)-----00-00-00--13131313-101010--------------|
-00-00-00--(8888-555)-X3--00-00-00--13131313-101010--------------|
-00-00-00--(8888-555)-----00-00-00--13131313-101010--------------|

PreChorus
-------------------------------------------------------------------|
-------------------------------------------------------------------|
----------101010--7777--------------151515--12121212---------------|
-00000000-8-8-8---5555----00000000--131313--10101010---------------|
-00000000-8-8-8---5555-X3-00000000--131313--10101010---------------|
-00000000-8-8-8---5555----00000000--131313--10101010---------------|

Chorus
-----------------------------------------------------------------------|
-----------------------------------------------------------------------|
-14-14-14-14-14-14-14-14--99999999--1010101010101010--77777777---------|
-12-12-12-12-12-12-12-12--77777777--8-8-8-8-8-8-8-8---55555555---------|
-12-12-12-12-12-12-12-12--77777777--8-8-8-8-8-8-8-8---55555555---------|
-12-12-12-12-12-12-12-12--77777777--8-8-8-8-8-8-8-8---55555555---------|
Tap to rate this tab
 
# A B C D E F G H I J K L M N O P Q R S T U V W X Y Z