Song name
# A B C D E F G H I J K L M N O P Q R S T U V W X Y Z

Misc Unsigned Bands - The Sheer - Strangelove tab

Help us improve GuitareTab! Take a short survey!
-----------------------------------------------------------------------------
			     SONG NAME - Band Name
-----------------------------------------------------------------------------
This band is only known in Holland at the moment but they are a really good britpoplike 
Check them out!!

Tabbed by:Me
Email:

Tuning: Normal Tuning
    C                  C7                Am
e|--0-0-----0-----0----0-0-----0-----0---0-0-----0-----0---3-----------------|
B|--1---1-----1--------1---1-----1-------1---1-----1-------3-----------------|
G|--0-----0-----0------3-----3-----3-----2-----2-----2-----3-----------------|
D|--2------------------2-----------------2-----------------1-----------------|
A|--3------------------3-----------------0-----------------x-----------------|
E|--x------------------x-----------------x-----------------x-----------------|

This comes back every chorus


| /  slide up
| \  slide down
| h  hammer-on
| p  pull-off
| ~  vibrato
| +  harmonic
| x  Mute note
===============================================================================
Related for The Sheer - Strangelove tab