Song name
# A B C D E F G H I J K L M N O P Q R S T U V W X Y Z

Misc Unsigned Bands - Natural Effect - Ocd tab

new artist
Natural Effect
O.C.D
D tuning
()=palm mute

Verse
----------------------------------------------------------------|
----------------------------------------------------------------|
----------------------------------------------------------------|
---9/10-7-7-7-7---3/5-2-2-2-2---9/10-7-7-7-7---3/5-2-3-2-3-5----|
-0--------------0-------------0--------------0------------------|
----------------------------------------------------------------|

Bridge
----------------------------------------------------|
----------------------------------------------------|
----1112--9999-----5/7--44/5/4----------------------|
-0--9/10--7777--0--3/5--22/3/2----------------------|
-0--9/10--7777--0--3/5--22/3/2----------------------|
-0--9/10--7777--0--3/5--22/3/2----------------------|

PreChorus
--------------------------------------------------------------|
--------------------------------------------------------------|
--------------------------------------------------------------|
-(0000)-2-(00)-3-(00)-5-(0)-7-(0)-7/8-------------------------|
-(0000)-2-(00)-3-(00)-5-(0)-7-(0)-7/8-------------------------|
-(0000)-2-(00)-3-(00)-5-(0)-7-(0)-7/8-------------------------|

Chorus
------------------------------------------------------------|
------------------------------------------------------------|
------------------------------------------------------------|
-0000--2--00--3--00--5--0--7--0--7/8------------------------|
-0000--2--00--3--00--5--0--7--0--7/8------------------------|
-0000--2--00--3--00--5--0--7--0--7/8------------------------|

Outro
-------------------------------------------------------------------------0---|
-------------------------------------------------------------------------3---|
-------------------------------------------------------------------------2---|
-------------------------------------0-2-0-3-0-5-0-7-0-8-0-7-0-5-3-----3-0---|
-------------------------------------0-2-0-3-0-5-0-7-0-8-0-7-0-5-3-X4--3-----|
-0-2-0-3-0-5-0-7-0-8-0-7-0-5-0-3-X4--0-2-0-3-0-5-0-7-0-8-0-7-0-5-3-----3-----|
Tap to rate this tab
# A B C D E F G H I J K L M N O P Q R S T U V W X Y Z