Song name
# A B C D E F G H I J K L M N O P Q R S T U V W X Y Z

Misc Unsigned Bands - Natural Effect - Despair tab

Natural Effect
The Suffering Within
Despair
D# tuning


Intro/Outro
-------0--------0--------------------|
---6----6-------6--------------------|
----7----7------7--------------------|
-----0------X8--7--------------------|
-5--------------5--------------------|
-0--------------0--------------------|

Verse
-0000000000--3333333333--000000000000------------------------------------|
-6666666666--3333333333--000000000000------------------------------------|
-7777777777--5555555555--222222222222------------------------------------|
-7777777777--5555555555--222222222222--2222/33333-0----------------------|
-5555555555--3333333333--000000000000--2222/33333-0----------------------|
-0000000000--3333333333--000000000000--2222/33333-0----------------------|

Chorus
---------------------------------------------------|
---------------------------------------------------|
---------------------------------------------------|
-5-55-5/88--00--3-33-3/66--00----------------------|
-5-55-5/88--00--3-33-3/66--00----------------------|
-5-55-5/88--00--3-33-3/66--00----------------------|

Bridge
--------------------------------------------|
--------------------------------------------|
--------------------------------------------|
--------------------------------------------|
-3-3-0-2-2-0-2-0----------------------------|
-3-3-0-2-2-0-2-0----------------------------|
-3-3-0-2-2-0-2-0----------------------------|
Tap to rate this tab
# A B C D E F G H I J K L M N O P Q R S T U V W X Y Z