Song name
# A B C D E F G H I J K L M N O P Q R S T U V W X Y Z

Misc Unsigned Bands - Ten Mile Tide - Sweet Life tab

-------------------------------------------------------------------------------
			     Sweet Life - Ten Mile Tide
-------------------------------------------------------------------------------

These guys are an unsigned band from california, who have a really cool sound that 
folk and rock, with a little bit of bluesgrass.  They're worth checking out, espcecially if 
live in San Francisco area,

Tuning: Standard


          Gtype2                  Cadd9             D                                 D

e|--------------------------------------------2h3 ----------------2h3-----------|
B|------------------------------------------------------------------------------|
G|----------------------------0------------3------------------3-----------------|
D|------------0-----------2-------0------------------(0)------------------------|
A|--------2------2----3---------------------------------------------------------|
E|----3-------------------------------------------------------------------------|


Follow this chord progression and riff throughout the rest of the song.  I'm working on 
solo right now, have it up in a few days.

| /  slide up
| \  slide down
| h  hammer-on
| p  pull-off
| ~  vibrato
| +  harmonic
| x  Mute note

=============================================================
Tap to rate this tab
# A B C D E F G H I J K L M N O P Q R S T U V W X Y Z