Song name
# A B C D E F G H I J K L M N O P Q R S T U V W X Y Z

Misc Unsigned Bands - Insomnia - Redefined tab

-------------------------------------------------------------------------------
			     Redefined - Insomnia
-------------------------------------------------------------------------------
Tabbed by: freddygobang
Email: let_sleeping_punks_lie@hotmail.com

Tuning: standard EADGBe

Note: The 'INTRO PT2' is pretty much the same riff as the second part of the verse, if not exactly the same.

INTRO PT 1
e|---------------------------------------------------------------------------|
B|---------------------------------------------------------------------------|
G|-------------7---------------7---------------------------9-9-9-9-9-9-9-9-9-|
D|-7-7-7-7-7-7-7---7-7-7-7-7-7-7---7-7-7-7-7-7-7-7-7-7-7-7-9-9-9-9-9-9-9-9-9-|
A|-7-7-7-7-7-7-5---7-7-7-7-7-7-5---7-7-7-7-7-7-7-7-7-7-7-7-7-7-7-7-7-7-7-7-7-|
E|-5-5-5-5-5-5-----5-5-5-5-5-5-----5-5-5-5-5-5-5-5-5-5-5-5-------------------|

INTRO PT 2
e|---------------------------------------------------------------------------|
B|---------------------------------------------------------------------------|
G|--------------7-7-7-7-7-7---------------7-7-7-7-7-7------------------------|
D|-7-7-7-7-7-7--7-7-7-7-7-7--7-7-7-7-7-7--7-7-7-7-7-7--7-7-7-7-7-7-----------|
A|-7-7-7-7-7-7--5-5-5-5-5-5--7-7-7-7-7-7--5-5-5-5-5-5--7-7-7-7-7-7-----------|
E|-5-5-5-5-5-5---------------5-5-5-5-5-5---------------5-5-5-5-5-5-----------|

e|---------------------------------------------------------------------------|
B|---------------------------------------------------------------------------|
G|-7-7-7-7-7-7---------------------------------------------------------------|
D|-7-7-7-7-7-7--5------------------------------------------------------------|
A|-5-5-5-5-5-5--5------------------------------------------------------------|
E|--------------3------------------------------------------------------------|


VERSE
e|---------------------------------------------------------------------------|
B|---------------------------------------------------------------------------|
G|--------------7-7-7-7-7-7---------------7-7-7-7-7-7------------------------|
D|-7-7-7-7-7-7--7-7-7-7-7-7--7-7-7-7-7-7--7-7-7-7-7-7--7-7-7-7-7-7-----------|
A|-7-7-7-7-7-7--5-5-5-5-5-5--7-7-7-7-7-7--5-5-5-5-5-5--7-7-7-7-7-7-----------|
E|-5-5-5-5-5-5---------------5-5-5-5-5-5---------------5-5-5-5-5-5-----------|

e|---------------------------------------------------------------------------|
B|---------------------------------------------------------------------------|
G|-7-7-7-7-7-7---------------------------------------------------------------|
D|-7-7-7-7-7-7--5-5-5-5-5-5--------------------------------------------------|
A|-5-5-5-5-5-5--5-5-5-5-5-5--------------------------------------------------|
E|--------------3-3-3-3-3-3--------------------------------------------------|

e|---------------------------------------------------------------------------|
B|---------------------------------------------------------------------------|
G|--------------7-7-7-7-7-7---------------7-7-7-7-7-7------------------------|
D|-7-7-7-7-7-7--7-7-7-7-7-7--7-7-7-7-7-7--7-7-7-7-7-7--7-7-7-7-7-7-----------|
A|-7-7-7-7-7-7--5-5-5-5-5-5--7-7-7-7-7-7--5-5-5-5-5-5--7-7-7-7-7-7-----------|
E|-5-5-5-5-5-5---------------5-5-5-5-5-5---------------5-5-5-5-5-5-----------|


e|---------------------------------------------------------------------------|
B|---------------------------------------------------------------------------|
G|-7-7-7-7-7-7---------------------------------------------------------------|
D|-7-7-7-7-7-7--5------------------------------------------------------------|
A|-5-5-5-5-5-5--5------------------------------------------------------------|
E|--------------3------------------------------------------------------------|


CHORUS
e|---------------------------------------------------------------------------|
B|---------------------------------------------------------------------------|
G|--------7-7----------------------------------------------------------------|
D|-7-7-7--7-7--5-5--7--------------------------------------------------------|
A|-7-7-7--5-5--5-5--7--------------------------------------------------------|
E|-5-5-5-------3-3--5--------------------------------------------------------|
                                                                               X7


And then:

e|---------------------------------------------------------------------------|
B|---------------------------------------------------------------------------|
G|--------7--7---------------------------------------------------------------|
D|-7-7-7--7--7-7-------------------------------------------------------------|
A|-7-7-7--5--5-7-------------------------------------------------------------|
E|-5-5-5-------5-------------------------------------------------------------|

The middle 8 is composed of an improvised solo (A pentatonic) on lead guitar over
a variation of the chorus on rhythm guitar:

Middle 8 (Rhythm Guitar)

e|---------------------------------------------------------------------------|
B|---------------------------------------------------------------------------|
G|--------7-7----------------------------------------------------------------|
D|-7-7-7--7-7--5-5--7--------------------------------------------------------|
A|-7-7-7--5-5--5-5--7--------------------------------------------------------|
E|-5-5-5-------3-3--5--------------------------------------------------------|
	 	                                                              X4
Note: play the rhythm guitar middle 8 riff, silence for a bar, play it again, etc.



OUTRO
e|---------------------------------------------------------------------------|
B|---------------------------------------------------------------------------|
G|---------------------------------------------------------------------------|
D|--------------5--7---------------------------------------------------------|
A|-6-6-3-8-6-3--5--7---------------------------------------------------------|
E|--------------3--5---------------------------------------------------------|


Intro PT1
Intro PT2
Verse
Chorus
Verse
Chorus
Middle 8
Outro


| /  slide up
| \  slide down
| h  hammer-on
| p  pull-off
| ~  vibrato
| +  harmonic
| x  Mute note
===============================================================================
Tap to rate this tab
# A B C D E F G H I J K L M N O P Q R S T U V W X Y Z