Guitaretab - guitar tabs
Song name
# A B C D E F G H I J K L M N O P Q R S T U V W X Y Z

Misc Unsigned Bands - Medley - Liar tab

we`re a brand new band from dublin land of leprechians
yes we are a band and ths is just one of our many songs

----------------------------------------------------------------------------
                             [0o]MEDLEY[0o]
----------------------------------------------------------------------------
tabbed by:hansbme4free
tuning:standard (Ebgdae)

intro
GAIN
e|---------------------------------------------|
b|-17b18--------------------17b18--------------|
g|-15b16--------------------15b16--------------|
d|---------------------------------------------|
a|---------------------------------------------|
e|------16-16-16161616-----------16-16-16161616|
[ Tab from: http://www.guitaretab.com/m/misc-unsigned-bands/57113.html ]
verse
CLEAN
e|---------------------------------------------|
b|---------------------------------------------|
g|---------------------------------------------|
d|---------------------------------------------|
a|---------------------------------------------|
e|-0-1-2-3-4-5-6-7------1-2-3-2-1-2-3----------|

verse continued
clean
   v ^ v ^ v ^ v ^     v ^ v ^ v
e|------------------------------|
b|------------------------------|
g|------------------------------|
d|-7-7-7-7-7-7-7-0-----5-x-5-x-5|
a|-7-7-7-7-7-7-7-0-----5-x-5-x-5|
e|-5-5-5-5-5-5-5-0-----3-x-3-x-3|

chorus
e|-------------------------|
b|-------------------------|
g|-------------------------|
d|---------------------7-7-|
a|---------------------7-7-|
e|-0h1-0h2-0h3-0h4 0h5-5-5-|

outro
   v v v ^ v v
e|-------------|
b|-------------|
g|-------------|
d|-7-7-x-x-5-5-|
a|-7-7-x-x-5-5-|
e|-5-5-x-x-3-3-|


intro x2
verse
chorus x2
verse
chorus x2
outro x4 to fade
Related for Medley - Liar tab
×
Medley - Liar