Song name
# A B C D E F G H I J K L M N O P Q R S T U V W X Y Z

Misc Unsigned Bands - Pyromaniacs Anonnymous - I Dont Care Part1 tab

Pyromaniacs annoymous is the geatest band becuz im in them and we are an edmonton.
and if anny bass players in the ages of 12-13 read this conact Justin@
kyles_brother@hotmail.com
I dont care part 1
album  the pyromanian empire

INTRO

-------9---10---9-------9-------9|
-----8---8----8--8-10-8--8-10-8--|
---9-----------------------------|
---------------------------------|
---------------------------------|
---------------------------------|

Riff 1 Verse 1

---3-4-3-------3------3|
--2-2-2--2-3-2---2-2-3-|
-3---------------------|      play 3 times
-----------------------|
-----------------------|
-----------------------|

Riff 2 verse 2
--------------------------|
--------------------------|
--------------------------|     Play 3 times
---9-10-9--------9-------9|
--8-8--8--8-10-8---8-10-8-|
-9------------------------|

Riff 3 verse 3
-----------------------|
-----------------------|
-----------------------|     play 3 times
---3-4-3-------3------3|
--2-2-2--2-3-2---2-2-3-|
-3---------------------|

solo
---------9910p10p9911p11p9910p10p9912p12p--99---------------------------------|
-----------------------------------------99--9910p10p99-21-21-9910p10p9911p11-|
0-11-0-11---------------------------------------------------------------------|
------------------------------------------------------------------------------|
------------------------------------------------------------------------------|
------------------------------------------------------------------------------|

solo continued
--------------|
p9910p10p9912p|
--------------|
--------------|
--------------|
--------------|

Outro
----------|
--------0-|
--------66|
--------66|
--------77|
0-3-5---55|
Tap to rate this tab
# A B C D E F G H I J K L M N O P Q R S T U V W X Y Z