Song name
# A B C D E F G H I J K L M N O P Q R S T U V W X Y Z

Misc Unsigned Bands - New Beginning - Come tab

THIS WHOLE SONG IS PLAYED IN DISTORTION UNTIL YOU GET TO THE BRIDGE THEN YOU CONTINUE DISTORTION.
THIS SONG IS PLAYED IN DROP D TUNING
THIS SONG ROCKS
HAVE FUN
MY EMAIL IS ROCKETSHOT21@YAHOO.COM
TELL ME WHAT YOU THINK

INTRO 
E-------------------------------------------------------------------E
B-------------------------------------------------------------------B
G-------------------------------------------------------------------G 2 TIMES
D-6-5-6-3hold------6-5-6-1hold------6-5-6-8-6-6-5-3-----------------D
A-------------------------------------------------------------------A
D-------------------------------------------------------------------D

VERSE
E-------------------------------------------------------------------E
B-------------------------------------------------------------------B
G-------------------------------------------------------------------G 2 TIMES
D-6HOLD--------8HOLD--------3HOLD--------6HOLD----------------------D
A-6HOLD--------8HOLD--------3HOLD--------6HOLD----------------------A
D-6HOLD--------8HOLD--------3HOLD--------6HOLD----------------------D

PRE CHORUS
E-------------------------------------------------------------------E
B-------------------------------------------------------------------B
G-------------------------------------------------------------------G 2 TIMES
D-6-5-6-3hold------6-5-6-1hold------6-5-6-8-6-6-5-3-----------------D
A-------------------------------------------------------------------A
D-------------------------------------------------------------------D


CHORUS
E-------------------------------------------------------------------E
B-------------------------------------------------------------------B
G-------------------------------------------------------------------G 3 TIMES
D-6-6-6-6--5-5-5-5--6-6-6-6--8-8-8-8-8-8-8-8--3HOLD-----------------D
A-6-6-6-6--5-5-5-5--6-6-6-6--8-8-8-8-8-8-8-8--3HOLD-----------------A
D-6-6-6-6--5-5-5-5--6-6-6-6--8-8-8-8-8-8-8-8--3HOLD-----------------D

BRIDGE (PLAY THIS PART WOTHOUT DISTORTION)
E-------------------------------------------------------------------E
B-------------------------------------------------------------------B
G-------------------------------------------------------------------G 2 TIMES
D6--6--6--6--5--5--5--5--6--6--6--6--8--8--8--8--3--3--3--3---------D
A-------------------------------------------------------------------A
D-------------------------------------------------------------------D

END RIFF
E-------------------------------------------------------------------E
B-------------------------------------------------------------------B
G-------------------------------------------------------------------G 
D-6-6-6-6-6-6-6-6-5-5-5-5-5-5-5-5-8-8-8-8-8-8-8-8-3-3-3-3-3-3-3-3---D
A-6-6-6-6-6-6-6-6-5-5-5-5-5-5-5-5-8-8-8-8-8-8-8-8-3-3-3-3-3-3-3-3---A
D-6-6-6-6-6-6-6-6-5-5-5-5-5-5-5-5-8-8-8-8-8-8-8-8-3-3-3-3-3-3-3-3---D

MAIN RIFF
INTRO
VERSE
PRE CHORUS
CHORUS
VERSE
PRE CHORUS 
CHORUS
BRIDGE
END RIFF
Tap to rate this tab
# A B C D E F G H I J K L M N O P Q R S T U V W X Y Z