Song name
# A B C D E F G H I J K L M N O P Q R S T U V W X Y Z

Misc Unsigned Bands - Ithaca - Game Over tab

Ithaca - Game Over (Solo)
Tabbed by: Xavieres
Standard tuning

|---------------------------------------------------|
|---------------------------------------------------|
|---------------------------------------------------|
|-0---0---0-3-3-3---3---0-3-5--7--7--5-7---10---5-7-|
|---------------------------------------------------|
|---------------------------------------------------|

|-----------------------------------------------------|
|-----------------------------------------------------|
|-----------10-10-10---9-9---12--10--9--9-------------|
|-12---12----------------------------------12-12-10---|
|-----------------------------------------------------|
|-----------------------------------------------------|

|---------------------------------------------------|
|---------------------------------------------------|
|---------------------------------------------------|
|-15-12-12-12-15-12-12-12-15-12-12-12-17-12-12-12-12|
|---------------------------------------------------|
|---------------------------------------------------|

|---------------------------------------------------|
|---------------------------------------------------|
|---------------------------------------------------|
|-17-12-12-12-17-12-12-12-12-17-12-12-12-15-12-12-12|
|---------------------------------------------------|
|---------------------------------------------------|

|-------------------------------------------------------------------------------------------------|
|-------------------------------------------------------------------------------------------------|
|-14-12-12-12-14-12-12-12-15-12-12-12-15-12-12-12-14-12-12-12-14-12-12-12-------------------------|
|-------------------------------------------------------------------------15-12-12-12-15-12-12-12-|
|-------------------------------------------------------------------------------------------------|
|-------------------------------------------------------------------------------------------------|

|------------------------------------------------------------------|
|------------------------------------------------------------------|
|------------------------------------------------------------------|
|-14b(15)---10-12-----10----10----------------------------------10-|
|------------------------12----12-10-12-10----10----------10-12----|
|------------------------------------------12----12-10-12----------|

|------------------------------------------------------|
|------------------------------------------------------|
|-----------10-9------------------10-12-----10-12b(14)-|
|-12--------------------12-----------------------------|
|------------------------------------------------------|
|------------------------------------------------------|

|--------------------------------------------|------------------------------------|
|--------------------------------------------|------------------------------------|
|------------10------------------12----------|-3--3--x--3-3-3--x--5-5-5-5-5-5-5-5-|
|-8-8-12-8-8----8-12-10-10-14-10----10-14-10-|-3--3--x--3-3-3--x--5-5-5-5-5-5-5-5-|
|--------------------------------------------|-1--1--x--1-1-1--x--3-3-3-3-3-3-3-3-|
|--------------------------------------------|------------------------------------|
\______________________x3____________________/
Tap to rate this tab
# A B C D E F G H I J K L M N O P Q R S T U V W X Y Z